TABS / CHORD CHARTS - Last Update 10.22.16
Not finding what you're looking for? Let me know and I'll add it to the list.

BAD COMPANION (Sour Songs)
SUN SONG (Having Fun)
CURRITUCK (Having Fun)
HOW TO LIE (Having Fun)
OURAY AND CHIPETA (What Price Glory)
KIT CARSON (What Price Glory)
JOHN C FREMONT (What Price Glory)
RED BUTTE (What Price Glory)
WALTER AND ELIZABETH PAEPKE (What Price Glory)
WOODY CREEK (What Price Glory)
COTTONWOOD (What Price Glory)
CREAMSIDE (Anawan)
ARE YOU FOR REAL (Anawan)
ONE OF US IS DEAD (Anawan)
WHERE ARE YOU NOW? (Anawan)
AM I A PART OF YOU? (Anawan)
SOIL SONG (All Material)
I HAVE TAKEN TO OLD MEN (All Material)
THE BAD MAN (Soft Wings)
THERE SHE IS (Soft Wings)
SYRINX (Plants and Bodies)
Misc Unreleased


================
BAD COMPANION

E---------------
B----------0000-
G-----2549-7755-
D-----2539-7744-
A------------0--
E-----1538-70-0-

================
SUN SONG

E-----------------------------
C#----------------------------
A-------0-----0-----0-----0--
D-------0-0---0-0---5-5---5-5-
A------4---4-4---7-7---7-7---7
D-----4-----5-----7-----7-----

E----------------------------- -------------------------------------
C#-------------------0-----0-- ----0-----0-----0-----0-----1-----1--
A-------0-0---0-0---0-0---0-0- ---0-0---0-0---0-0---0-0---0-0---0-0-
D--------9-----9-------------- -------------------------------------
A------9---9-9---9-7---7-7---7 --5---5-7---7-0---0-0---0-0---0-0---0
D-----9-----9-----7-----7----- -5-----7-----0-----0-----0-----0-----


================
CURRITUCK (same tuning as one of us is dead)
D-----0000-00000-------
C#----5300-00000-------
A-----4400-00000-------
D-----5500-00000-000000
A-----0044-54792-000000
D-----0044-54792-054579

or, spelled out-

D  A  G  C# D  F#
D  A  D  C# D  E
F# C# D  A  C# D
G  A  D  A  C# D

G  A  D  A  C# D
F# C# D  A  C# D
A  E  D  A  C# D
B  F# D  A  C# D
E  B  D  A  C# D

================
HOW TO LIE

VERSE 1, 3:

E-----000-000-000000-0-00
B-----000-000-000000-0-00
G-----241-246-281628-4-62
D-----241-246-271627-4-62
A-----002-004-062406-0-00
E-----240-245-270027-4-52

VERSE 2, 4 (different end):

E-----000-000-000000-0-00
B-----000-000-000000-0-20
G-----241-246-281628-1-21
D-----241-246-271627-1-21
A-----002-004-062406-2-02
E-----240-245-270027-0-00

MID SECTION:

E-----0-00
B-----0-00
G-----4-62
D-----4-62
A-----0-00
E-----4-52
===================
OURAY AND CHIPETA

E--------------------1-------------------------------------
B--------4-----4-----------4-----1-----6------6-----4---4--
G-------0-0---0-0---1-1---0-0---0-0---0-0----6-6---5---5-5-
D------3---3-3---3-0---0-----3-1---1-6---6--5---5-5---0---0
A-----4-----3-----1------3-----------------6---------5-----
E-----------------------4-----1-----6------------4---------


===================
KIT CARSON
D--------------------------
B-----5-3-0-0-1-0-0-0--0-0-
G-----0-0-5-0-0-0-0-0--0-0-
D-----0-2-0-2-1-0-2-4--5-7-
G-----5-0-5-0-0-0-0-0--4-6-
D-----3-2-3-2-1-0-2-2--5-7-


===================
JOHN C FREMONT
E--------------------------
B-----0000-555-8-3-0-8-1-5
G-----0000-000-9-0-8-9-0-5
D-----2222-505-0-0-7-0-1-7
A-----2454-454-7-2-6-7-0-7
E-----0000-555-8-3-7-8-1-5

===================
RED BUTTE
E---------
B---------
G-----000322
D-----727000
A-----505500
E-----615321

===================
WALTER P PAEPCKE
*capo on 4th fret
E--------------0000-----------
B-----2022-----53532-----1110-
G-----22222121-42420-00002220-
D-----00000000-53532-00002220-
A------2-22222-----0-22220302-
E-----2-2-0000-------0130-----

===================
WOODY  CREEK
*capo on 3rd fret
E-----50000-0000
B-----33103-1100
G-----00203-2021
D-----23222-2300
A-----32022-0022
E-----03100-1100

===================
COTTONWOOD
C#----500-33388811110
B-----500-33388811112
A-----000-33388813110
D-----034-33588*11314
A-----500-3538*811130
D-----500-33388811110


==========
CREAMSIDE
tuning = standard

A SECTION =

E------------------------------------------------------
B-----------0-----------0-----------0-----------0------
G---------5---5-------5---5-------3---3-------3---3----
D-------4-------4---4-------4---2-------2---2-------2--
A------------------------------------------------------
E-----4-----------4-----------2-----------2------------

E--------------------------------------------
B-----------0-----------0-----------2-----2--
G---------1---1-------1---1-------1---1---1--
D-------1-------1---1-------1---1-------1-1--
A--------------------------------------------
E-----1-----------0-----------0-----------0--

B SECTION =

E------------------------------------------------------
B-----------0-----------0-----------0-----------0------
G---------5---5-------5---5-------5---5-------5---5----
D-------4-------4---4-------4---4-------4---4-------4--
A------------------------------------------------------
E-----4-----------4-----------4-----------4------------

E--------------------------------------------
B-----------0-----------0-----------0-----0--
G---------6---6-------6---6-------1---1---1--
D-------5-------5---5-------5---1-------1-1--
A--------------------------------------------
E-----5-----------5-----------0-----------0—

END SECTION =

E-----------------------------------------------
B-----------0-----------0-----------0-----0--0--
G---------1---1-------1---1-------1---1---2--2--
D-------1-------1---1-------1---1-------1-2--2--
A----------------------------------------------
E-----0-----------0-----------0-----------1--1--



================
ARE YOU FOR REAL
tuning = middle strings down half step from standard

VERSE =

E-----0---0--
B-----0---2--
F#----0---3--
C#----0---0--
A-----0---0--
E-----0---0--

TURNAROUND #1 & #2 =

E-----7---9---5---7--
B-----7---7---5---5--
F#----7---7---5---5--
C#----7---7---5---5--
A-----7---7---5---5--
E-----7---7---5---5--

TURNAROUND #3 =

E-----7---9---7---9--
B-----7---7---7---7--
F#----7---7---8---8--
C#----7---7---7---7--
A-----7---7---7---7--
E-----7---7---7---7--

ENDING SECTION =

E-----5---7--
B-----5---5--
F#----5---5--
C#----5---5--
A-----5---5--
E-----5---5--

=================
ONE OF US IS DEAD

VERSE =

D-----0---0---0--0--4--
C#----0---0---0--0--0--
A-----0---0---0--0--0--
D-----7---5---7--5--4--
A-----0---0---0--0--0--
D-----0---0---0--0--0--

TURNAROUND =

D-----0---0--
C#----3---1--
A-----3---0--
D-----3---0--
A-----3---0--
D-----3---0--
*bar this from top to keep top D string open

ENDING SECTION =

D---------------------------------------------------
C#--------------------------------------------------
A---------0-------0------0-----------0---------0----
D-------0---0---0------0---0-------0---0-----0---0--
A---------------------------------------------------
D-----3-------5-----1---------1-1---------1---------

==================
WHERE ARE YOU NOW?
tuning = standard with low string to C

VERSE=

E-----0---0--
B-----0---0--
G-----0---0--
D-----4---2--
A-----0---3--
C-----2---0--

B SECTION 1 =

E-----0--0--0--0--
B-----0--0--0--0--
G-----7--5--4--3--
D-----0--0--0--0--
A-----0--0--0--0--
C-----7--5--4--3--

B SECTION 2 =

E-----0--0--0--0--
B-----0--0--0--0--
G-----0--0--0--0--
D-----7--5--4--3--
A-----0--0--0--0--
C-----7--5--4--3--

===================
AM I A PART OF YOU?
tuning = standard

VERSE =

E-------------------0---------------0---------------0-------0-------0-------0--
B---------7---9-----------7---9-----------7---9-------9-------9-------9--------
G-------6---6---8-------6---6---8-------6---6---8-------8-------8-------8------
D-----7-----------9---7-----------9---7-----------9-------9-------9-------9----
A------------------------------------------------------------------------------
E------------------------------------------------------------------------------

B SECTION =

E------------------------------------------------------
B-----------4---------------4---------------0----------
G---------4---4-----------4---4-----------2---2--------
D-------2-------2---2---2-------2---2---2-------2---2--
A-----4-----------4---4-----------4--------------------
E-------------------------------------2-----------2----

E------------------------------------------------------
B-----------0---------------0---------------0----------
G---------2---2-----------2---2-----------2---2--------
D-------1-------1---1---2-------2---2---1-------1---1--
A-----2-----------2-------------------2-----------2----
E---------------------2-----------2--------------------

 

 


=========
SOIL SONG
tuning = drop d, 4th string up half step

INTRO=

E---------------------
B----------0-------0--
G#---------0-------0--
D---------------------
A---------------------
D-----0-0-----2-2-----

CHORUS=

E------------------------------------
B--------2-------2--------2-------2--
G#-------0-------0--------0-------0--
D--------2-------2--------2-------2--
A-----0-----0-0------0-0-----0-0-----
D------------------------------------

 

E------------------------------------
B--------0-------0--------0-------0--
G#-------3-------3--------3-------3--
D--------4-------4--------4-------4--
A------------------------------------
D-----0-----0-0------0-0-----0-0-----

=======================
I HAVE TAKEN TO OLD MEN
tuning = standard with bottom note down half step

A SECTION =

E------------------------------
B------------------------------
G------------------------------
D-------0--0----0---0--0----0--
A-------0--0----0---0--0----0--
D#----3---3-3-4---5---5-5-4----

======================
THERE SHE IS

VERSE
E----------
B-----0000-
G-----6521-
D-----6511-
A-----002--
E--------0-

THERE SHE IS - CHORUS
E----------------------------
B--------0-----0-----0-------
G-------6-6---6-6---5-5------
D------6---6-6---6-5---5-----
A----------------------------
E-----0-----0-----0-----0--00

THERE SHE IS - BRIDGE *listen for strumming pattern
E---------------
B------7-9-2-3--
G------6-8-0-1--
D------7-9-2-2--
A------0-0-0-0--
E---------------


===========
THE BAD MAN
tuning = like One of Us is Dead with one different string

verse fingerpicking rhythm is as follows. I'll just spell the chords after this to make it easier to read

F#------5---5---5-----5---5---5-----5---5---5------------
C#------------5-------------5-------------5--------------
A---------5-------------5-------------5------------------
D--------------------------------------------------------
A--------------------------------------------------------
D-----0------------0-------------0-------------0----0-0--

VERSE =

F#----5---3---0--
C#----5---3---0--
A-----5---3---5--
D----------------
A----------------
D-----0---0---5--

CHORUS =

F#---------------------
C#----0--0--0--0---0---
A-----4--5--7--12--10--
D----------------------
A-----------0--0---0---
D-----0--0-------------

CHORUS FINAL =

F#-------------
C#----0--0--0--
A-----4--5--6--
D--------------
A-----------0--
D-----0--0-----

==========
SYRINX

VERSE
B E B, G#m E A#m, D#m F# C#m, E G#m C#m

"ONE DAY THEY MIGHT DRIFT APART..."
Em, G/D, C#dim7, C7, Bm Em Bm
Em, G/D, C#dim7, C7

"CLUMSILY FLY AWAY"
LH: G
RH: oscillating between BDG ADF# CEA

"NOW HE WAITS..."
Em, G/D, C#dim7, C7, Bm Em Bm
Em, G/D, C#dim7, C7

VERSE 2 "AGAIN"

"HOW HAS HE BEEN..."
G7 D/F# Em D Am G#+ C/G F#dim7

VERSE 3 "CLAWS GRIP TIGHT"

OUTRO
C#m G#m/D# E F# E F# B


================
A RUSSIAN DOLL

Breakdown =

E---------------
B-----0--5--1--1
G-----5--5--1--0
D-----4--4--0--2
A-----5--0--1---
E--------------0

Verse =

E-----4--2--0
B-----0--0--4
G-----2--2--4
D-----------
A-----0--0--4
E-----------

WASHED OUT

E-----0-0-1
B-----0-0-0
G-----6-2-2
D-----4-3-0
A-----5----
E-------3-1

TAKES A GOOD MAN

E----------------
B-----5421-002000
F#----0022-323322
C#----3300-223333
A-----0000-22---2
E------------220-

COME ON TIRED LINE
E-----000000
B-----000003
G-----754034
D-----644334
A-----750000
E-----003513

 

BOTTLE THIS BREAD
E-----04x0-5555-0020-000
B-----0200-5555-2222-300
G#----0220-5655-1111-350
D-----2212-5575-0200-352
A-----2222-5557-0002-352
D-----2212-5555-0000-352

WON ME A DOG

A SECTION
E-----------------
B-----------------
G-------2---5-4--7
D------0-0-0--0--0
A-----------------
E-----1---5---3--7

B SECTION
E----------------------------
B----------------------------
G--------0-----0---2-----0---
D-------0-0---0---0-0---0-0--
A------4---4-2---0---0-0---0-
E-----5-----3---1-----1------

C SECTION
E-----0-0-5-0
B-----0-1-5-0
G-----0-2-5-9
D-----5-2-7-0
A-----4-0-5-7
E-----5-1-6-8




A LOUD LAD
E-----0000
B-----5000
G-----4212
D-----6424
A-----0024
D-----6420

SOME GRAND THEFT
E---------
B---------
G-----2000-0000
D-----0024-0005
A-----0212-2224
E-----2323-0235

EGG ON SHEEP
E-----00000-0-00
B-----23162-1-01
G-----24272-2-52
D-----20002-2-52
A-----00000-0-00
E-----03160-1-51


TREVOR WILSON | ANAWAN | TWVE | RESOURCES | TREVOR WILSON | ANAWAN | TWVE | RESOURCES | TREVOR WILSON | ANAWAN | TWVE | RESOURCES | TREVOR WILSON | ANAWAN | TWVE | RESOURCES | TREVOR WILSON | ANAWAN | TWVE | RESOURCES | TREVOR WILSON | ANAWAN | TWVE | RESOURCES | TREVOR WILSON | ANAWAN | TWVE | RESOURCES | TREVOR WILSON | ANAWAN | TWVE | RESOURCES | TREVOR WILSON | ANAWAN | TWVE | RESOURCES | TREVOR WILSON | ANAWAN | TWVE | RESOURCES | TREVOR WILSON | ANAWAN | TWVE | RESOURCES | TREVOR WILSON | ANAWAN | TWVE | RESOURCES | TREVOR WILSON | ANAWAN | TWVE | RESOURCES | TREVOR WILSON | ANAWAN | TWVE | RESOURCES | TREVOR WILSON | ANAWAN | TWVE | RESOURCES | TREVOR WILSON | ANAWAN | TWVE | RESOURCES | TREVOR WILSON | ANAWAN | TWVE | RESOURCES | TREVOR WILSON | ANAWAN | TWVE | RESOURCES | TREVOR WILSON | ANAWAN | TWVE | RESOURCES | TREVOR WILSON | ANAWAN | TWVE | RESOURCES | TREVOR WILSON | ANAWAN | TWVE | RESOURCES | TREVOR WILSON | ANAWAN | TWVE | RESOURCES | TREVOR WILSON | ANAWAN | TWVE | RESOURCES | TREVOR WILSON | ANAWAN | TWVE | RESOURCES | TREVOR WILSON | ANAWAN | TWVE | RESOURCES | TREVOR WILSON | ANAWAN | TWVE | RESOURCES | TREVOR WILSON | ANAWAN | TWVE | RESOURCES | TREVOR WILSON | ANAWAN | TWVE | RESOURCES | TREVOR WILSON | ANAWAN | TWVE | RESOURCES | TREVOR WILSON | ANAWAN | TWVE | RESOURCES | TREVOR WILSON | ANAWAN | TWVE | RESOURCES | TREVOR WILSON | ANAWAN | TWVE | RESOURCES | TREVOR WILSON | ANAWAN | TWVE | RESOURCES | TREVOR WILSON | ANAWAN | TWVE | RESOURCES | TREVOR WILSON | ANAWAN | TWVE | RESOURCES | TREVOR WILSON | ANAWAN | TWVE | RESOURCES | TREVOR WILSON | ANAWAN | TWVE | RESOURCES | TREVOR WILSON | ANAWAN | TWVE | RESOURCES | TREVOR WILSON | ANAWAN | TWVE | RESOURCES | TREVOR WILSON | ANAWAN | TWVE | RESOURCES | TREVOR WILSON | ANAWAN | TWVE | RESOURCES | TREVOR WILSON | ANAWAN | TWVE | RESOURCES | TREVOR WILSON | ANAWAN | TWVE | RESOURCES | TREVOR WILSON | ANAWAN | TWVE | RESOURCES | TREVOR WILSON | ANAWAN | TWVE | RESOURCES | TREVOR WILSON | ANAWAN | TWVE | RESOURCES | TREVOR WILSON | ANAWAN | TWVE | RESOURCES | TREVOR WILSON | ANAWAN | TWVE | RESOURCES | TREVOR WILSON | ANAWAN | TWVE | RESOURCES | TREVOR WILSON | ANAWAN | TWVE | RESOURCES | TREVOR WILSON | ANAWAN | TWVE | RESOURCES | TREVOR WILSON | ANAWAN | TWVE | RESOURCES | TREVOR WILSON | ANAWAN | TWVE | RESOURCES | TREVOR WILSON | ANAWAN | TWVE | RESOURCES | TREVOR WILSON | ANAWAN | TWVE | RESOURCES | TREVOR WILSON | ANAWAN | TWVE | RESOURCES | TREVOR WILSON | ANAWAN | TWVE | RESOURCES | TREVOR WILSON | ANAWAN | TWVE | RESOURCES | TREVOR WILSON | ANAWAN | TWVE | RESOURCES | TREVOR WILSON | ANAWAN | TWVE | RESOURCES | TREVOR WILSON | ANAWAN | TWVE | RESOURCES | TREVOR WILSON | ANAWAN | TWVE | RESOURCES | TREVOR WILSON | ANAWAN | TWVE | RESOURCES | TREVOR WILSON | ANAWAN | TWVE | RESOURCES | TREVOR WILSON | ANAWAN | TWVE | RESOURCES | TREVOR WILSON | ANAWAN | TWVE | RESOURCES | TREVOR WILSON | ANAWAN | TWVE | RESOURCES | TREVOR WILSON | ANAWAN | TWVE | RESOURCES | TREVOR WILSON | ANAWAN | TWVE | RESOURCES | TREVOR WILSON | ANAWAN | TWVE | RESOURCES | TREVOR WILSON | ANAWAN | TWVE | RESOURCES | TREVOR WILSON | ANAWAN | TWVE | RESOURCES | TREVOR WILSON | ANAWAN | TWVE | RESOURCES | TREVOR WILSON | ANAWAN | TWVE | RESOURCES | TREVOR WILSON | ANAWAN | TWVE | RESOURCES | TREVOR WILSON | ANAWAN | TWVE | RESOURCES | TREVOR WILSON | ANAWAN | TWVE | RESOURCES | TREVOR WILSON | ANAWAN | TWVE | RESOURCES | TREVOR WILSON | ANAWAN | TWVE | RESOURCES | TREVOR WILSON | ANAWAN | TWVE | RESOURCES | TREVOR WILSON | ANAWAN | TWVE | RESOURCES | TREVOR WILSON | ANAWAN | TWVE | RESOURCES | TREVOR WILSON | ANAWAN | TWVE | RESOURCES | TREVOR WILSON | ANAWAN | TWVE | RESOURCES | TREVOR WILSON | ANAWAN | TWVE | RESOURCES | TREVOR WILSON | ANAWAN | TWVE | RESOURCES | TREVOR WILSON | ANAWAN | TWVE | RESOURCES | TREVOR WILSON | ANAWAN | TWVE | RESOURCES | TREVOR WILSON | ANAWAN | TWVE | RESOURCES | TREVOR WILSON | ANAWAN | TWVE | RESOURCES | TREVOR WILSON | ANAWAN | TWVE | RESOURCES |